Pilot's Curse

(/) Slide Up  (\) Slide Down  (h) Hammer On  (p) Pull Off  (b) Bend (r) Release (v) Vibrato
E|------------------------------------------------------------------------------
B|------------------------------------------------------------------------------
G|------------------------------------------------------------------------------
D|------------------------------------------------------------------------------
A|------------------------------------------------------------------------------
E|--5--7--8--10--1------5--7--8--10--1--------5--7--8--10--1------3------4------



E|---------------------------
B|---------------------------
G|---------------------------
D|---------------------------
A|--------3------------------
E|--3--5-----5------2--3--4--



E|------------------
B|------------------
G|------------------
D|------------------
A|------------------
E|--5--7--8--10--1--



E|-----------------------------------------------------
B|-----------------------------------------------------
G|-----------------------------------------------------
D|-------7-----------------------5--3---------5--3-----
A|---------------------7-------------------------------
E|--5-----------5-------------1------------1-----------



E|------------
B|------------
G|------------
D|------------
A|------------
E|--3------4--



E|--------------------------------------------------------------------------------------
B|--------------------------------------------------------------------------------------
G|--------------------------------------------------------------------------------------
D|--------------------------------------------------------------------------------------
A|--------3----------------------------3--------------------------3---------------------
E|--3--5-----5------2--3--4------3--5-----5------2--3--4----3--5-----5------2--3--4--5--
http://www.guitartabcreator.com
Guitar Tab Creator is intended to store guitar tab created through the tool. It currently does not support in-line text editing. Any text you place in here will be lost. If you need to comment on your tab, please use the "Tab Notes" section located below.