Lies

(/) Slide Up  (\) Slide Down  (h) Hammer On  (p) Pull Off  (b) Bend (r) Release (v) Vibrato


E|---------------|-------------------|-------------------|-------------------|-
B|---------------|-------------------|-------------------|-------------------|-
G|-----6---7-6---|---------4---5-4---|------9----10-9----|-------4-2-----5-4-|-
D|---7---7-----7-|-------5---5-----5-|---10---10------10-|-----3-------5-----|-
A|-0-------------|-0-----------------|-0-----------------|-0---------0-------|-
E|---------------|-------------------|-------------------|-------------------|-



E|-----------------|-------------|---
B|-----------------|-------------|---
G|-----------------|-5-6---------|---
D|---7-6-5---------|-----7---5-7-|---
A|-0-------7-6-5-0-|-------7-----|---
E|-----------------|-------------|---



E|------------------|---
B|------------------|---
G|------------------|---
D|------7-7-5-------|---
A|-0----------7-5-0-|---
E|------------------|---



E|-----------------|-----------------|-------------|-----------------
B|-----------------|-----------------|-------------|-----------------
G|-----------------|-----5h7---------|-------------|-----0-----------
D|-----7-7-5-------|-5h7---------5-7-|---7-7-5-----|-2h4---4-2---5-7-
A|-0---------7-5-0-|---------5-7-----|-0-------5-0-|-----------3-----
E|-----------------|-----------------|-------------|-----------------



E|-----------------------------|---------------------------|-
B|-----------------------------|---------------------------|-
G|---------------5-6-5---------|---------------------------|-
D|---7-7-5-------------7---5-7-|---7-7-5-------5-7-7---5-7-|-
A|-0-------7-5-0---------7-----|-0-------7-5-0-------7-----|-
E|-----------------------------|---------------------------|-



E|---------------------------------|---------------------------------
B|---------------------------------|---------------------------------
G|---------------------------------|---------------------------------
D|---7-6-5-7-6-5-7-6-5-7-6-5-------|---7-6-5-7-6-5-7-6-5-7-6-5-------
A|-0-------------------------7-6-5-|-0-------------------------7-6-5-
E|---------------------------------|---------------------------------



E|-------------------------------|---------------------------------|-
B|-------------------------------|---------------------------------|-
G|-------------------------------|---------------------------------|-
D|-------------------------------|---------------------------------|-
A|-0-0-0-0-0-0-0-0-0-0-0-0-0-0-0-|-0-0-0-0-0-0-0-0-0-0-0-0-0-0-0-0-|-
E|-------------------------------|---------------------------------|-
http://www.guitartabcreator.com
Guitar Tab Creator is intended to store guitar tab created through the tool. It currently does not support in-line text editing. Any text you place in here will be lost. If you need to comment on your tab, please use the "Tab Notes" section located below.