Sweep Lick 1

(/) Slide Up  (\) Slide Down  (h) Hammer On  (p) Pull Off  (b) Bend (r) Release (v) Vibrato


E|------------------8--12p8---------------|------------------8--12p8---------------|--
B|--------------10-----------10-----------|--------------10-----------10-----------|--
G|-----------9-------------------9--------|-----------9-------------------9--------|--
D|-----7h10-------------------------10p7--|-----7h10-------------------------10p7--|--
A|--7-------------------------------------|--8-------------------------------------|--
E|----------------------------------------|----------------------------------------|--



E|--------------------------------------------|--------------------------------------------|-----
B|-----------------10--12/13p12p10------------|---------------------------------10---------|-----
G|--------------9-------------------10p9------|----------9h10p9--------------9------9------|-----
D|--------9h10----------------------------10--|------10----------10------10------------10--|-----
A|--8/10--------------------------------------|--12------------------12--------------------|-----
E|--------------------------------------------|--------------------------------------------|-----



E|-----------------12p8------12/17p13------------------------------------------------13----------|--
B|-------------10--------10------------17p13--------------13--17p13--------------15------15------|--
G|----------9---------------------------------16------16-------------16------16--------------16--|--
D|------10----------------------------------------17---------------------17----------------------|--
A|--12-------------------------------------------------------------------------------------------|--
E|-----------------------------------------------------------------------------------------------|--



E|--------------------17--19--20--
B|----------------17--------------
G|---------16h17------------------
D|--17/19-------------------------
A|--------------------------------
E|--------------------------------
http://www.guitartabcreator.com
Guitar Tab Creator is intended to store guitar tab created through the tool. It currently does not support in-line text editing. Any text you place in here will be lost. If you need to comment on your tab, please use the "Tab Notes" section located below.