lasso- phoenix

(/) Slide Up  (\) Slide Down  (h) Hammer On  (p) Pull Off  (b) Bend (r) Release (v) Vibrato
INTRO/VERSO
E|---------------------------------------------------------------------------------------------
B|---------------------------------------------------------------------------------------------
G|------16----------16----------13------13-----------------------------------------------------
D|--14------14--14------14--11------11------11----------11----------11----------13---------11--
A|----------------------------------------------12--13------13--13------13--11------11--9------
E|---------------------------------------------------------------------------------------------


BRIDGE o puente lo que sea
E|-----------------------------------------------------------------------------------------
B|-----------------------------------------------------------------------------------------
G|-----------------------------------------------------------------------------------------
D|-----------------------------------------------------------------------------------------
A|-----------------------------------------------------------------------------------------
E|--9--9--9--7--7--7--9--9--9--7--7--7--9--9--7--9--9--9--7--7--7--9--9--9--7--7--7--9--7--


CORO
E|-------------------------------------------------------------------------
B|-------------------------------------------------------------------------
G|-------------------------------------------------------------------------
D|-------------------------------------------------------------------------
A|-7-7-7-7-7-7-7-7-7-7-7-7-7-7-7-7-9-9-9-9-9-9-9-9-11-11-11-11-11-11-11-11-
E|-------------------------------------------------------------------------



E|-------------------------------------------------------------------------
B|-------------------------------------------------------------------------
G|-------------------------------------------------------------------------
D|-------------------------------------------------------------------------
A|---------------------------------------------------------9-9-9-9-9-9-9-9-
E|-9-9-9-9-9-9-9-9-9-9-9-9-9-9-9-9-11-11-11-11-11-11-11-11-----------------


Verso 2
E|---------------------------------------------------
B|---------------------------------------------------
G|---------------------------------------------------
D|---9-----9-----8---8-------------------8---8-9-8---
A|-7---7-7---7-9---9---9-----9-----9---9---9-------9-
E|-----------------------6-7---7-7---7---------------


CORO 2 ?
E|-------------------------------------------------------------------------------------------------
B|-------------------------------------------------------------------------------------------------
G|-------------------------------------------------------------------------------------------------
D|-------------------------------------------------------------------------------------------------
A|-14-14-14-14-14-14-14-14-13-13-13-13-13-13-13-13-11-11-11-11-11-11-11-11-11-11-11-11-11-11-11-11-
E|-------------------------------------------------------------------------------------------------



E|-----------------------------------------------------------------------
B|-----------------------------------------------------------------------
G|-----------------------------------------------------------------------
D|------------------------------------------------------------13------11-
A|-7-7-7-7-7-7-7-7-4-4-4-4-4-4-4-4-13-13-13-13-13-13-13-13-11----11-9----
E|-----------------------------------------------------------------------




http://www.guitartabcreator.com
Guitar Tab Creator is intended to store guitar tab created through the tool. It currently does not support in-line text editing. Any text you place in here will be lost. If you need to comment on your tab, please use the "Tab Notes" section located below.