Edit X

(/) Slide Up  (\) Slide Down  (h) Hammer On  (p) Pull Off  (b) Bend (r) Release (v) Vibrato
E|--------------------------------------------------------
B|--------------------------------------------------------
G|-----------------2--2--2--3--2--2--2--2--0--2-----------
D|--0--0--0--0--3--------------------------------3--0--0--
A|--------------------------------------------------------
E|--------------------------------------------------------



E|--------------------------------------------------------
B|--------------------------------------------------------
G|--------------2--3--3--3--0--2--3--3--3--0--2-----------
D|--0--0--0--3-----------------------------------3--0--0--
A|--------------------------------------------------------
E|--------------------------------------------------------



E|-----------------------------------------------------------------
B|-----------------------------------------------------------------
G|-----------------------------------------------------------------
D|-----------------------------------------------2--2--3--2--0--2--
A|--0--0--3--0--0--0--0--3--0--0--0--0--3--0--0--------------------
E|-----------------------------------------------------------------



E|-------------------------------------------------------
B|-------------------------------------------------------
G|--9--9--12--12--12--9--9--7--7--7--9--9--12--12--9--7--
D|-------------------------------------------------------
A|-------------------------------------------------------
E|-------------------------------------------------------
http://www.guitartabcreator.com
Guitar Tab Creator is intended to store guitar tab created through the tool. It currently does not support in-line text editing. Any text you place in here will be lost. If you need to comment on your tab, please use the "Tab Notes" section located below.