Sail On (intro)

(/) Slide Up  (\) Slide Down  (h) Hammer On  (p) Pull Off  (b) Bend (r) Release (v) Vibrato
E|----1----2----4--------------2----1--------------2----4----6--------------2----1--------------
B|------------------------2--------------4----2------------------------2--------------4----2----
G|-------------------1--------------------------------------------3-----------------------------
D|----------------------------------------------------------------------------------------------
A|----------------------------------------------------------------------------------------------
E|----------------------------------------------------------------------------------------------



E|--1--2--4--------2--1-----1--1--1--1--
B|--------------2--------4--------------
G|-----------1--------------------------
D|--------------------------------------
A|--------------------------------------
E|--------------------------------------
http://www.guitartabcreator.com
Guitar Tab Creator is intended to store guitar tab created through the tool. It currently does not support in-line text editing. Any text you place in here will be lost. If you need to comment on your tab, please use the "Tab Notes" section located below.