song 2

(/) Slide Up  (\) Slide Down  (h) Hammer On  (p) Pull Off  (b) Bend (r) Release (v) Vibrato
E|--------------------------------------------------------------------------------------
B|--------------------------------------------------------------------------------------
G|--------------------------------------------------------------------------------------
D|--------------------------------------------------------------------------------------
A|-----6-----6-----6-----6-----6-----6-----5-----5-----5-----5-----5-----3-----3-----3--
E|--0-----0-----0-----0-----0-----0-----0-----0-----0-----0-----0-----0-----0-----0-----



E|-----------------------------------------------------------------------------------------------
B|-----------------------------------------------------------------------------------------------
G|-----------------------------------------------------------------------------------------------
D|-----------------------------------------------------------------------------------------------
A|-----6--5--3-----------6--5--3-----------6--5--3-----------3--5--6--------6--5--3-----3--5--6--
E|--0-----------0--0--0-----------0--0--0-----------0--0--0-----------0--0-----------0-----------



E|-------------------------------------------------------------------
B|-------------------------------------------------------------------
G|-------------------------------------------------------------------
D|-------------------------------------------------------------------
A|-------------------------------------------------------------------
E|-9-9-0-0-9-9-8-8-0-0-9-9-8-8-0-0-9-9-8-8-0-0-0-0-9-9-8-8-0-0-0-9-9-



E|-----------------------------------------------
B|-----------------------------------------------
G|-----------------------------------------------
D|-----------------------------------------------
A|-----6-----6-----6--------6--3--2-----2--3--6--
E|--0-----0-----0-----0--0-----------0-----------
http://www.guitartabcreator.com
Guitar Tab Creator is intended to store guitar tab created through the tool. It currently does not support in-line text editing. Any text you place in here will be lost. If you need to comment on your tab, please use the "Tab Notes" section located below.