Anchored Down

(/) Slide Up  (\) Slide Down  (h) Hammer On  (p) Pull Off  (b) Bend (r) Release (v) Vibrato


E|---------------------------------------------------------7--8--7--5--------
B|--3--1--0-----3--1--0--1/7--3--1--0-----3--1--0--1/7--5--------------7--5--
G|-----------0-------------------------0-------------------------------------
D|---------------------------------------------------------------------------
A|---------------------------------------------------------------------------
E|---------------------------------------------------------------------------



E|--7/12--10------10--15--12--10------12p10--7--------------------------------------
B|------------12------------------12------------7------5--3-----5--3----------------
G|-----------------------------------------------------------4--------4-------------
D|-----------------------------------------------------------------------5--4--0h2--
A|----------------------------------------------------------------------------------
E|----------------------------------------------------------------------------------



E|----------------------------------------------------------------------------------------------------
B|-------------------------------------------------------------------------------------------------3--
G|--2--4----------------7--------7--------7--------7--------7--7/9--7---------4--2--------------4-----
D|--3--5--2--4----7--5-----7--5-----7--5-----7--5-----7--5-------------9--12-----------------5--------
A|--------3--5----------------------------------------------------------------------7--5--7-----------
E|----------------------------------------------------------------------------------------------------
http://www.guitartabcreator.com
Guitar Tab Creator is intended to store guitar tab created through the tool. It currently does not support in-line text editing. Any text you place in here will be lost. If you need to comment on your tab, please use the "Tab Notes" section located below.