She's always a woman to me - peacejoytown

(/) Slide Up  (\) Slide Down  (h) Hammer On  (p) Pull Off  (b) Bend (r) Release (v) Vibrato
E|--2--3--2-----2--3--2--------------------5-------------------5---------5--5--5--7--10--
B|--3-----3--5--3-----3--------5--5--5--7-----7----5--5--5--7-----7------------7---------
G|--2--4--2--6--2--4--2--------------6--------7----------6--------7------------7---------
D|-----5-----7-----5-----------------7--------7----------7--------7----------------------
A|---------------------------------------------------------------------------------------
E|---------------------------------------------------------------------------------------



E|--7-------------7--10--7------------------------5-------------------5--2--------
B|--8--10--8--10------------0---------5--5--5--7-----7----5--5--5--7-----2--------
G|--9-----------------------0---------------6--------7----------6--------3--------
D|--------------------------4---------------7--------7----------7--------4--------
A|------------9----------7--------------------------------------------------------
E|--------------------------------------------------------------------------------
http://www.guitartabcreator.com
Guitar Tab Creator is intended to store guitar tab created through the tool. It currently does not support in-line text editing. Any text you place in here will be lost. If you need to comment on your tab, please use the "Tab Notes" section located below.