Breaking Inside

(/) Slide Up  (\) Slide Down  (h) Hammer On  (p) Pull Off  (b) Bend (r) Release (v) Vibrato

E|----------------------------------------------------
B|----------------------------------------------------
G|---------------------------------------3--2h3p2--0--
D|----------------3--5--------------------------------
A|-----6--5b3--5--------5-----6--5b3--5---------------
E|--5----------------------5--------------------------



E|----------------------|---------------------------
B|----------------------|---------------------------
G|----------------------|---------------------------
D|--0--5--0--7h8-7--10--|--0--5--0--7--10--8\7--12--
A|--0--5--0--7-8-7--10--|--0--5--0--7--10--8-7--12--
E|--0--5--0--7-8p7--10--|--0--5--0--7--10--8-7--12--



E|--------------------------------------------------------------
B|--------------------------------------------------------------
G|-----------------6--6--5-----------------------6--6--5--8--8--
D|--8--8--8--8--8--6--6--5--5--5--8--8--8--8--8--6--6--5--8--8--
A|--8--8--8--8--8--4--4--3--5--5--8--8--8--8--8--4--4--3--6--6--
E|--8--8--8--8--8-----------5--5--8--8--8--8--8-----------------



E|--
B|--
G|--
D|--
A|--
E|--
http://www.guitartabcreator.com
Guitar Tab Creator is intended to store guitar tab created through the tool. It currently does not support in-line text editing. Any text you place in here will be lost. If you need to comment on your tab, please use the "Tab Notes" section located below.