Lynn's Bday present

(/) Slide Up  (\) Slide Down  (h) Hammer On  (p) Pull Off  (b) Bend (r) Release (v) Vibrato

Stave 1:

E|-------------------------------------------------------------
B|--10--7--10--7--10--7----\7--7----10--7--10--7--10--7----\7--
G|-------------------------------------------------------------
D|-------------------------------------------------------------
A|-------------------------------------------------------------
E|-------------------------------------------------------------

Stave 2:

E|----------------------------------------------
B|----------------------------------------------
G|-----9--7--9----7--9--9--7--9b11----\7--9-----
D|--9-------------------------------------------
A|----------------------------------------------
E|----------------------------------------------

Stave 3:

E|--------------------------------------------------------------
B|-------------------------------\7--10--10--7--7h10/7--5v--\7--
G|-----9--7--9--9--7--9--7--------------------------------------
D|--7-----------------------9-----------------------------------
A|--------------------------------------------------------------
E|--------------------------------------------------------------

Stave 4:

E|------------------------------------------------------------------------------------
B|--7--10--7--10--7--10--7----\7--7--10--7--10--7--10--7--7--10--7\7------\7--5-------
G|-------------------------------------------------------------------------------7/4--
D|------------------------------------------------------------------------------------
A|------------------------------------------------------------------------------------
E|------------------------------------------------------------------------------------

Stave 5:

E|-------------------------------------
B|-------------------------------------
G|-----9--7--9--9--7--9--9--11v--\7h9--
D|--9----------------------------------
A|-------------------------------------
E|-------------------------------------

Stave 6:

E|------------------------------------------------------
B|------------------------------7--9--9--7--7h9/7--5\7--
G|-----9--9--9--7---------------------------------------
D|--9--------------9v--7--7--7--------------------------
A|------------------------------------------------------
E|------------------------------------------------------

Stave 7:

E|-------------7---------------------------------------7-----------------------------
B|-----10--10-----10--8--7--10--7--10\12--7----10--10-----10--8--7--10--7--10\12--7--
G|--7--------------------------------------------------------------------------------
D|-----------------------------------------------------------------------------------
A|-----------------------------------------------------------------------------------
E|-----------------------------------------------------------------------------------

Stave 8:

E|--------------------------------------------------------------------
B|--10--10--10--10--8--7--10--12--------------------------------------
G|--------------------------------11/9/7-------11--11------9----------
D|------------------------------------------9----------12-----12--9v--
A|--------------------------------------------------------------------
E|--------------------------------------------------------------------

Stave 9:

E|-----------------------------------------------------------------------------
B|-----------------------------------------------------------------------------
G|--11--11--11--9------9------------11--11--11--9------9--11--12----11--9------
D|-----------------12-----12--9v-------------------12----------------------12--
A|-----------------------------------------------------------------------------
E|-----------------------------------------------------------------------------

Stave 10:

E|--------------------------------------
B|--15--14------14v----\15--14----------
G|----------14------------------14------
D|----------------------------------16--
A|--------------------------------------
E|--------------------------------------

Stave 11:

E|-------------------------------------------------------------------------
B|--7--10--7--10--7--10--7----\7--7----7--10--7--10--7--7--10--7--10--7\7--
G|-------------------------------------------------------------------------
D|-------------------------------------------------------------------------
A|-------------------------------------------------------------------------
E|-------------------------------------------------------------------------

Stave 12:

E|-----------------
B|--12--10--8--7v--
G|-----------------
D|-----------------
A|-----------------
E|-----------------

Stave 13:

E|--------------------------------------------------------------------------------
B|--------------------------------------------------------------------------------
G|-----9--7--9--9--9v--9--7--9--9b11----\7--9---------9--9--7--9--7---------------
D|--9--------------------------------------------7h9-----------------9v--7--7--7--
A|--------------------------------------------------------------------------------
E|--------------------------------------------------------------------------------

Stave 14:

E|-----------------------------
B|--7--9--9--7--9--7-----------
G|--------------------9--9\11--
D|-----------------------------
A|-----------------------------
E|-----------------------------

Stave 15:

E|----------------------------------------------5---------------
B|--10--12--10--10--10--8--8--8--7--7--7--5--5-----7----8b10/7--
G|--------------------------------------------------------------
D|--------------------------------------------------------------
A|--------------------------------------------------------------
E|--------------------------------------------------------------

Stave 16:

E|---------------------------------------
B|--7--10--7--10--7--7--10--7--10\12--7--
G|---------------------------------------
D|---------------------------------------
A|---------------------------------------
E|---------------------------------------

Stave 17:

E|----------------------------------------------
B|--7--7--7--10--10/8--8/7--7/5--5h7--5/3p0-----
G|----------------------------------------------
D|----------------------------------------------
A|----------------------------------------------
E|----------------------------------------------

Stave 18:

E|-----------------------------------------------------------------------
B|-----7--10--10--10--8--8--7--7-----------7--10--10--7--10--7-----------
G|--------------------------------9--9--7-----------------------9--9\11--
D|--9--------------------------------------------------------------------
A|-----------------------------------------------------------------------
E|-----------------------------------------------------------------------

Stave 19:

E|--------------------------------------7-----
B|-----10--10--12--10--8--7--10--7--10-----7--
G|--------------------------------------------
D|--9-----------------------------------------
A|--------------------------------------------
E|--------------------------------------------

Stave 20:

E|-----------------------------------------
B|--8b10/7----7--10--10b12--12b14--10--12--
G|-----------------------------------------
D|-----------------------------------------
A|-----------------------------------------
E|-----------------------------------------

Stave 21:

E|-----------------------------------------5-------------------
B|-----7--8--10--10/8--8/7--7/5--5/3----------7--5--7\7\10\12--
G|--7-----------------------------------7----------------------
D|-------------------------------------------------------------
A|-------------------------------------------------------------
E|-------------------------------------------------------------

Stave 22:

E|-----7--7--9-----------------------7-------7--7--9------
B|--------------10--8--7--10--7--10-----7-------------10--
G|--7-----------------------------------------------------
D|--------------------------------------------------------
A|--------------------------------------------------------
E|--------------------------------------------------------

Stave 23:

E|------------------------------------------------
B|--10--10--10--10--8--10b12--10--12--10----------
G|----------------------------------------11p9p7--
D|------------------------------------------------
A|------------------------------------------------
E|------------------------------------------------

Stave 24:

E|----------------------------------------------------------------------------
B|-----7--10------------------------------------------------------------------
G|------------7--9--7-----7--9--11--11--11--9--7--7h9--9\11--11\12--11--9--7--
D|--9------------------9------------------------------------------------------
A|----------------------------------------------------------------------------
E|----------------------------------------------------------------------------

http://www.guitartabcreator.com
Guitar Tab Creator is intended to store guitar tab created through the tool. It currently does not support in-line text editing. Any text you place in here will be lost. If you need to comment on your tab, please use the "Tab Notes" section located below.