The End Of It All

(/) Slide Up  (\) Slide Down  (h) Hammer On  (p) Pull Off  (b) Bend (r) Release (v) Vibrato
E|--------------------------------------------------
B|--------------------------------------------------
G|--------------------------------------------------
D|--------------------------------------------------
A|--------8--------7--------8--------10--------8p7--
E|--0--0-----0--0-----0--0-----0--0------0--0-------



E|------------------------------------------------
B|------------------------------------------------
G|------------------------------------------------
D|------------------------------------------------
A|--------7--------8--------10--------8--------7--
E|--0--0-----0--0-----0--0------0--0-----0--0-----



E|------------------------------------------------------------------------------------------
B|------------------------------------------------------------------------------------------
G|------------------------------------------------------------------------------------------
D|--0--0--0--0--10--10--10--10--10--10--10--10--8--8--8--8--10--10--10--10--10--10--10--10--
A|--0--0--0--0--8---8---8---8---8---8---8---8---8--8--8--8--10--10--10--10--10--10--10--10--
E|--0--0--0--0------------------------------8---8--8--8--8--10--10--10--10--10--10--10--10--
http://www.guitartabcreator.com
Guitar Tab Creator is intended to store guitar tab created through the tool. It currently does not support in-line text editing. Any text you place in here will be lost. If you need to comment on your tab, please use the "Tab Notes" section located below.