La route des pingouins

(/) Slide Up  (\) Slide Down  (h) Hammer On  (p) Pull Off  (b) Bend (r) Release (v) Vibrato
E|---0---0---0---0-|---0---0---0---0-|---0---0---0---0-|---0---0---0---|-
B|-----4---2---0---|-----4---2---0---|-----4---2---0---|---------------|-
G|-----------------|-----------------|-----------------|-2---1---------|-
D|-----------------|-----------------|-----------------|---------4---2-|-
A|-----------------|-----------------|-----------------|---------------|-
E|-0---------------|-0---------------|-0---------------|-0-------------|-



E|------------------|------------------|-----------------|-----------------|-
B|---0---0----0---0-|---0---0----0---0-|---0---0---0---0-|---0---0---0---0-|-
G|------------------|------------------|-----1---6---4---|-----1---6---4---|-
D|-----7---11---9---|-----7---11---9---|-----------------|-----------------|-
A|-9----------------|-9----------------|-7---------------|-7---------------|-
E|------------------|------------------|-----------------|-----------------|-



E|-----------------|-----------------|-----------------|-----------------|-
B|---0---0---0---0-|---0---0---0---0-|---0---0---0---0-|---0---0---0---0-|-
G|-4---2---1-------|-----------------|-2---1-----------|-----------------|-
D|-------------4---|-----------------|---------4---2---|-----------------|-
A|-----------------|-2---0-----------|-----------------|-0---------------|-
E|-----------------|---------4---2---|-----------------|-----4---2---0---|-



E|-----------------|-----------------|-0---------0---0-|---0---0---0-----|-
B|---0---0---0---0-|---0---0---0---0-|---0-4-0-2---0---|-----------------|-
G|-4---2---1-------|-----------------|-----------------|-2---0-----------|-
D|-------------4---|-----------------|-----------------|---------4---2---|-
A|-----------------|-2---0-----------|-----------------|-----------------|-
E|-----------------|---------4---2---|-----------------|-----------------|-



E|---0---0---0---0-|---0---0---0---0-|---0---0---0---0-|---0---0---0---|-
B|-----4---2---0---|-----4---2---0---|-----4---2---0---|---------------|-
G|-----------------|-----------------|-----------------|-2---1---------|-
D|-----------------|-----------------|-----------------|---------4---2-|-
A|-----------------|-----------------|-----------------|---------------|-
E|-0---------------|-0---------------|-0---------------|-0-------------|-



E|-----------
B|-----------
G|-----------
D|-----------
A|-----------
E|-0---------
http://www.guitartabcreator.com
Guitar Tab Creator is intended to store guitar tab created through the tool. It currently does not support in-line text editing. Any text you place in here will be lost. If you need to comment on your tab, please use the "Tab Notes" section located below.