intro Lamour

(/) Slide Up  (\) Slide Down  (h) Hammer On  (p) Pull Off  (b) Bend (r) Release (v) Vibrato


E|--6--7--9--7--6--7--
B|--------------------
G|--------------------
D|--------------------
A|--------------------
E|--------------------



E|--6--4--6--7--6--4--6--
B|-----------------------
G|-----------------------
D|-----------------------
A|-----------------------
E|-----------------------



E|-----2--3--2-----2--
B|--5-----------5-----
G|--------------------
D|--------------------
A|--------------------
E|--------------------



E|--------2-----------
B|--3--5-----5--3--5--
G|--------------------
D|--------------------
A|--------------------
E|--------------------



E|--------------------
B|--2--3--5--3--2--3--
G|--------------------
D|--------------------
A|--------------------
E|--------------------



E|--------------------
B|-----2--3--2-----2--
G|--4-----------4-----
D|--------------------
A|--------------------
E|--------------------



E|-----------------2--3--2--------------
B|--------2--3--5-----------5--3--2-----
G|--3--4-----------------------------4--
D|--------------------------------------
A|--------------------------------------
E|--------------------------------------



E|--------------------------------
B|--------------------------------
G|--2-----------------------------
D|-----5--4--2--------------------
A|--------------5--4--2-----------
E|-----------------------5--3--2--
http://www.guitartabcreator.com
Guitar Tab Creator is intended to store guitar tab created through the tool. It currently does not support in-line text editing. Any text you place in here will be lost. If you need to comment on your tab, please use the "Tab Notes" section located below.