Myriad

(/) Slide Up  (\) Slide Down  (h) Hammer On  (p) Pull Off  (b) Bend (r) Release (v) Vibrato
E|----------------------------------------------------------
B|----------------------------------------------------------
G|----------------------------------------------------------
D|----------------------------------------------------------
A|--------5--7--5p0-----------5-----------------------------
E|--5--7-------------7--5--7-----7--5--5--7--5--3--5--3--0--



E|-----------------------------------------------------
B|-----------------------------------------------------
G|-----------------------------------------------------
D|--------------------------------5-------5h7-------5--
A|--------5--7--5-----------5--7-----5h7-------5h7-----
E|--5--7-----------7--5--7-----------------------------



E|----------------------------------------------------------------------------------------
B|----------------------------------------------------------------------------------------
G|------------------------7---------------------------------------------------------------
D|----------------5--7/9-----9/7/5--------5-----------------------------------------------
A|--7--5-----5h7--------------------5--7-----7--5-----------5-----------------------------
E|--------7----------------------------------------7--5--7-----7--5--5--7--5--3--5--3--0--



E|--0-----0-----
B|--0-----0-----
G|--9-----------
D|--9--5--2-----
A|--7--5--2-----
E|--0--3--0-----



E|------------------------------------------------------------------------------------------
B|------------------------------------------------------------------------------------------
G|----------------------------0-----------0-----------0----------0-----------0--------------
D|-------5-----------------5-----5-----3-----3-----2----------3-----3-----2-----2----9---7--
A|--5/7-----7--5-----5--7-----------4-----------3--------3/4-----------3-----------3/10--9--
E|----------------7-----0-------------------------------------------------------------------
http://www.guitartabcreator.com
Guitar Tab Creator is intended to store guitar tab created through the tool. It currently does not support in-line text editing. Any text you place in here will be lost. If you need to comment on your tab, please use the "Tab Notes" section located below.