Lavender

(/) Slide Up  (\) Slide Down  (h) Hammer On  (p) Pull Off  (b) Bend (r) Release (v) Vibrato

E|----------------------------------------------------------------------------------
B|----------------------------------------------------------------------------------
G|----------------------------------------------------------------------------------
D|----------------------------------------------------------------------------------
A|------------------------------------------------------------------10--12--10------
E|--10--12--12--12--12--12--12--10h12--3----10--12--12--12--12--12--------------12--



E|------------------------------------------------------------------------------
B|----------------------------------------------------------------------10------
G|----------------------------------------------------------------------10------
D|--------------------------------------------------------------10----------12--
A|------------------------------------------------------------------12----------
E|--10--12--12--12--12--12--12--10h12--3----10--12--12--12--12------------------



E|-----------------------------------------------------------
B|-----------------------------------------------------------
G|-----------------------------------------------------------
D|----------10------------3-------------3-----------3--------
A|--------------12-----------5-------------5-----------5-----
E|--10--12----------3--5--------5--3p0--------3--5--------5--



E|--------
B|--------
G|--5-----
D|--5--7--
A|--5--7--
E|--3--5--
http://www.guitartabcreator.com
Guitar Tab Creator is intended to store guitar tab created through the tool. It currently does not support in-line text editing. Any text you place in here will be lost. If you need to comment on your tab, please use the "Tab Notes" section located below.