Drive

(/) Slide Up  (\) Slide Down  (h) Hammer On  (p) Pull Off  (b) Bend (r) Release (v) Vibrato

Stave 1:

E|--------------------------------------------------------------------------------------------------------
B|--------------------------------------------------------------------------------------------------------
G|--------------------------------------------------------------------------------------------------------
D|--------------------------------------------------------------------------------------------------------
A|--------10----------10-------------12--10--------------------10----------10----------12--10-------------
E|--0--0------12--12------12--10--0----------12--10------0--0------12--12------12--10----------12--10-----

Stave 2:

E|-------------------------------------------------------------------------
B|-------------------------------------------------------------------------
G|-------------------------------------------------------------------------
D|-------------------------------------------------------------------------
A|--------10----------10-------------12--10------------------10------------
E|--0--0------12--12------12--10--0----------12--10----0--0------12--10/5--

Stave 3:

E|------------------------------------------------------------------------------------------
B|------------------------------------------------------------------------------------------
G|------------------------------------------------------------------------------------------
D|------------------------------------------------------------------------------------------
A|--------10----------10-------------12--10------------------10----------10----------10h12--
E|--0--0------12--12------12--10--0----------12--10----0--0------12--12------12--10---------

Stave 4:

E|--------------------------------------------------------------------------------------
B|--------------------------------------------------------------------------------------
G|--------------------------------------------------------------------------------------
D|--10------10h12-----------------------------------------------------5--1--3--------5--
A|------12-----------------10----------10-------------12--10----------5--1--3-----------
E|-------------------0--0------12--12------12--10--0----------12--10--5--1--3-----------

http://www.guitartabcreator.com
Guitar Tab Creator is intended to store guitar tab created through the tool. It currently does not support in-line text editing. Any text you place in here will be lost. If you need to comment on your tab, please use the "Tab Notes" section located below.