Bjorg's track

(/) Slide Up  (\) Slide Down  (h) Hammer On  (p) Pull Off  (b) Bend (r) Release (v) Vibrato


E|--------------------------------------------------------------------------------------------------
B|-----------1-----------0-----------1-----------0-----------1-----------0-----------1-----------0--
G|--------2-----------2-----------2-----------2-----------0-----------0-----------0-----------0-----
D|-----2-----------2-----------2-----------2-----------2-----------2-----------2-----------2--------
A|--0-----------0-----------0-----------0-----------3-----------3-----------3-----------3-----------
E|--------------------------------------------------------------------------------------------------



E|--------------------------------------------------------------------------------------------------
B|-----------1-----------0-----------1-----------0-----------1-----------0-----------1-----------0--
G|--------2-----------2-----------2-----------2-----------0-----------0-----------0-----------0-----
D|-----2-----------2-----------2-----------2-----------2-----------2-----------2-----------2--------
A|--0-----------0-----------0-----------0-----------3-----------3-----------3-----------3-----------
E|--------------------------------------------------------------------------------------------------



E|--------------------------------------------------------------
B|-----------3-----------0-----------3-----------0-----------0--
G|--------0-----------0-----------0-----------0-----------2-----
D|-----4-----------4-----------4-----------4-----------3--------
A|--5-----------5-----------5-----------5-----------3-----------
E|--------------------------------------------------------------



E|-----------------------------------------------------------------------------------------------------
B|-----------------------------------------------------------------------------------------------------
G|-----------------------------------------------------------------------------------------------------
D|--9--9--9--9--9--9--10--10--10--10--10--10--7--7--7--7--7--7-----------------------------------------
A|--7--7--7--7--7--7--7---7---7---7---7---7---7--7--7--7--7--7--10--10--10--10--10--10--7--7--7--7--7--
E|--------------------------------------------------------------8---8---8---8---8---8---5--5--5--5--5--



E|--------
B|--------
G|--------
D|--------
A|--7--7--
E|--5--5--
http://www.guitartabcreator.com
Guitar Tab Creator is intended to store guitar tab created through the tool. It currently does not support in-line text editing. Any text you place in here will be lost. If you need to comment on your tab, please use the "Tab Notes" section located below.