Mother of Mine TAB

(/) Slide Up  (\) Slide Down  (h) Hammer On  (p) Pull Off  (b) Bend (r) Release (v) Vibrato


E|--------------1-----|---------------------|-------------------|--------------2-------
B|--------3-----------|--------3--0---------|--------1----------|--------1-------------
G|-----2-----2-----2--|-----1---------------|-----------2-------|-----2-----2----------
D|--0-----------------|--------------2------|-----2--------2----|--0-------------------
A|--------------------|---------------------|--0----------------|----------------------
E|--------------------|--0------------------|-------------------|----------------------



E|--------0-----2----|--------------6--3----|--------------------|--5------------------
B|-------------------|--------3-------------|--------------------|----------------2----
G|--0--3-----3-------|-----3-----3----------|--------3--0-----1--|---------2-----------
D|-------------------|--2-------------------|-----2--------2-----|---------------------
A|-------------------|----------------------|--0-----------------|--0------------------
E|-------------------|----------------------|--------------------|---------------------
http://www.guitartabcreator.com
Guitar Tab Creator is intended to store guitar tab created through the tool. It currently does not support in-line text editing. Any text you place in here will be lost. If you need to comment on your tab, please use the "Tab Notes" section located below.