tab

(/) Slide Up  (\) Slide Down  (h) Hammer On  (p) Pull Off  (b) Bend (r) Release (v) Vibrato


E|--------------5--8--5--------------------------4--7--4--------------
B|-----------5-----------5--------------------5-----------5-----------
G|--------5-----------------5--------------4-----------------4--------
D|-----7-----------------------7--------6-----------------------6-----
A|--7-----------------------------7--7-----------------------------7--
E|--------------------------------------------------------------------



E|-------------------8--12--8-----------------------------------7--12--7------------------
B|---------------10------------10----------------------------9------------9---------------
G|------------9--------------------9----------------------9------------------9------------
D|-----7--10--------------------------10--7------------9------------------------9---------
A|--7----------------------------------------7--7--11------------------------------11--7--
E|----------------------------------------------------------------------------------------



E|--------------------8--13--8-----------------------------------------8--10--8--------------------
B|----------------10------------10---------------------------------10------------10----------------
G|------------10--------------------10----------------------7--11--------------------11--7---------
D|-----7--10----------------------------10--7--------7--10----------------------------------10--7--
A|--8------------------------------------------8--9------------------------------------------------
E|-------------------------------------------------------------------------------------------------



E|------------------------10--15--10-------------------------------------------10--12--10--
B|--------------------12--------------12-----------------------------------12--------------
G|----------------12----------------------12------------------------9--13------------------
D|---------9--12------------------------------12--9----------9--12-------------------------
A|--9--10--------------------------------------------10--11--------------------------------
E|-----------------------------------------------------------------------------------------



E|--------------------------------------------12--17--16--17--16--17--16--17--
B|--12------------------------------------14----------------------------------
G|------13--9-------------------------14--------------------------------------
D|-------------12--9----------11--14------------------------------------------
A|--------------------11--12--------------------------------------------------
E|----------------------------------------------------------------------------
http://www.guitartabcreator.com
Guitar Tab Creator is intended to store guitar tab created through the tool. It currently does not support in-line text editing. Any text you place in here will be lost. If you need to comment on your tab, please use the "Tab Notes" section located below.