We're the forgiven

(/) Slide Up  (\) Slide Down  (h) Hammer On  (p) Pull Off  (b) Bend (r) Release (v) Vibrato
E|-------|-------|-------|-------|-------|-------|-------|-------
B|-------|-------|-------|-------|-------|-------|-------|-------
G|-------|-------|-------|-------|-------|-------|-------|-------
D|-------|---4---|-------|---5---|-------|---4---|-------|---5---
A|---5---|---2---|---2---|---3---|---5---|---2---|---2---|---3---
E|---3---|-------|---0---|-------|---3---|-------|---0---|-------



E|-------|-------|-------|-------|-------|-------|-------|-------
B|-------|-------|-------|-------|-------|-------|-------|-------
G|-------|-------|-------|-------|-------|-------|-------|-------
D|-------|-------|---7---|---7---|---9---|---9---|---5---|-------
A|---5---|---5---|---5---|---5---|---7---|---7---|---3---|---7---
E|---3---|---3---|-------|-------|-------|-------|-------|---5---



E|-------|-------|-------|-------|-------|-------|-------|-------
B|-------|-------|-------|-------|-------|-------|-------|-------
G|-------|-------|-------|-------|-------|-------|-------|-------
D|-------|-------|---7---|---7---|---9---|---9---|---5---|-------
A|---5---|---5---|---5---|---5---|---7---|---7---|---3---|---7---
E|---3---|---3---|-------|-------|-------|-------|-------|---5---



E|-------|-------|-------|-------|-------|-------|-------|-------
B|-------|-------|-------|-------|-------|-------|-------|-------
G|-------|-------|-------|-------|-------|-------|-------|-------
D|-------|---7---|---9---|---5---|-------|---7---|---9---|---5---
A|---5---|---5---|---7---|---3---|---5---|---5---|---7---|---3---
E|---3---|-------|-------|-------|---3---|-------|-------|-------



E|-------|-------|-------|-------|-------|---------
B|-------|-------|-------|-------|-------|---------
G|-------|-------|-------|-------|-------|---------
D|-------|---4---|-------|---5---|-------|---------
A|---5---|---2---|---2---|---3---|---5---|---------
E|---3---|-------|---0---|-------|---3---|---------



E|-------|-------|-------|-------|-------|-------|-------|-------
B|-------|-------|-------|-------|-------|-------|-------|-------
G|-------|-------|-------|-------|-------|-------|-------|-------
D|---5---|---5---|---5---|---5---|-------|-------|-------|-------
A|---3---|---3---|---3---|---3---|---5---|---5---|---5---|---5---
E|-------|-------|-------|-------|---3---|---3---|---3---|---3---



E|-------|-------|-------|-------|-------|-------|-------|-------
B|-------|-------|-------|-------|-------|-------|-------|-------
G|-------|-------|-------|-------|-------|-------|-------|-------
D|---5---|---5---|---5---|---5---|-------|-------|-------|-------
A|---3---|---3---|---3---|---3---|---5---|---5---|---5---|---5---
E|-------|-------|-------|-------|---3---|---3---|---3---|---3---



E|-----|-----|-----|-----
B|-----|-----|-----|-----
G|-----|-----|-----|-----
D|-----|-----|--5--|--5--
A|--7--|--7--|--3--|--3--
E|--5--|--5--|-----|-----
http://www.guitartabcreator.com
Guitar Tab Creator is intended to store guitar tab created through the tool. It currently does not support in-line text editing. Any text you place in here will be lost. If you need to comment on your tab, please use the "Tab Notes" section located below.