1 intro lead

(/) Slide Up  (\) Slide Down  (h) Hammer On  (p) Pull Off  (b) Bend (r) Release (v) Vibrato


E|----------------------------------------------------------------------------------------------
B|----------------------------------------------------------------------------------------------
G|----------------------------------------------------------------------------------------------
D|--------7-----9--------------9-----7------------------5-----7--------------7-----5------------
A|-----7-----7-----7--------7-----7------------------5-----5-----5--------5-----5---------------
E|--7-----------------7--7------------------------5-----------------5--5------------------------



E|----------------------------------------------------------------------------------------------
B|----------------------------------------------------------------------------------------------
G|----------------------------------------------------------------------------------------------
D|--------3-----5--------------5-----3------------------5-----7--------------7-----5------------
A|-----3-----3-----3--------3-----3------------------5-----5-----5--------5-----5---------------
E|--3-----------------3--3------------------------5-----------------5--5------------------------



E|----------------------------------------------------------------------------------------------
B|----------------------------------------------------------------------------------------------
G|----------------------------------------------------------------------------------------------
D|--7--------------------------------------------5----------------------------------------------
A|--7--------------------------------------------5----------------------------------------------
E|--7--------------------------------------------5----------------------------------------------



E|----------------------------------------------------------------------------------------------
B|----------------------------------------------------------------------------------------------
G|----------------------------------------------------------------------------------------------
D|--3--------------------------------------------5----------------------------------------------
A|--3--------------------------------------------5----------------------------------------------
E|--3--------------------------------------------5----------------------------------------------



E|--------------------------------------------------------------------------
B|--------------------------------------------------------------------------
G|--------------------------------------------------------------------------
D|--7----------7----10--9------------------------5----------5----5----9--7--
A|--5----5--5--5----8---7------------------------3----3--3--3----3----7--5--
E|--------------------------------------------------------------------------



E|----------------------------------------------------------------------------------------------
B|----------------------------------------------------------------------------------------------
G|----------------------------------------------------------------------------------------------
D|----------------------------------------------------------------------------------------------
A|----------------------------------------------------------------------------------------------
E|--7----7--7--7----7----7--9----9--9--9----9----5----7----7--7--7----7----3----5----5--5--5----
http://www.guitartabcreator.com
Guitar Tab Creator is intended to store guitar tab created through the tool. It currently does not support in-line text editing. Any text you place in here will be lost. If you need to comment on your tab, please use the "Tab Notes" section located below.