obadjn

(/) Slide Up  (\) Slide Down  (h) Hammer On  (p) Pull Off  (b) Bend (r) Release (v) Vibrato

E|------------------------------------------------------------------------------------9--11--14------
B|--17--17--17--15--19--18--16------------------17--16--15------15--17---------11--8-------------13--
G|--19--19--19------------------17--15--16--18--------------16----------18--7------------------------
D|---------------------------------------------------------------------------------------------------
A|---------------------------------------------------------------------------------------------------
E|---------------------------------------------------------------------------------------------------



E|------------------------------------------------------12--------------15--15--13--10--9---------
B|--5--------6--8--------------6--8---------10--11----------14--15--15---------------------10--8--
G|-----6--7--------9--7--6--7--------9--10----------12--------------------------------------------
D|------------------------------------------------------------------------------------------------
A|------------------------------------------------------------------------------------------------
E|------------------------------------------------------------------------------------------------



E|--14----------17--18--15----------17----------18------14--------------11------10-----------
B|------15--16--------------16--15------19--20------16------13------11------10------8--7-----
G|--------------------------------------------------------------12------------------------8--
D|-------------------------------------------------------------------------------------------
A|-------------------------------------------------------------------------------------------
E|-------------------------------------------------------------------------------------------
http://www.guitartabcreator.com
Guitar Tab Creator is intended to store guitar tab created through the tool. It currently does not support in-line text editing. Any text you place in here will be lost. If you need to comment on your tab, please use the "Tab Notes" section located below.