Гъз 2

(/) Slide Up  (\) Slide Down  (h) Hammer On  (p) Pull Off  (b) Bend (r) Release (v) Vibrato


E|--------------------------------------------------------------------------------
B|-----2--------2--------------2--------2-----------------------------------------
G|--------0--------1--------------0--------1--------6-----------5--------5--------
D|--2--------2--------2--2--2--------2--------2--------5-----------5--------5-----
A|-----------------------------------------------3--------3--3--------3--------3--
E|--------------------------------------------------------------------------------



E|--------------------------------------------------------------------------
B|--------------------------------------------------------------------------
G|-----7-----7-----5-----5-----2---------------7----------5-----------------
D|-----7-----7-----5-----5-----2---------------7----------5-----2-----3-----
A|-----5-----5-----3-----3-----0---------------5----------3-----2-----3-----
E|--------------------------------------------------------------0-----1-----
http://www.guitartabcreator.com
Guitar Tab Creator is intended to store guitar tab created through the tool. It currently does not support in-line text editing. Any text you place in here will be lost. If you need to comment on your tab, please use the "Tab Notes" section located below.