Three Days Gone

(/) Slide Up  (\) Slide Down  (h) Hammer On  (p) Pull Off  (b) Bend (r) Release (v) Vibrato


E|-10-10-10-10-10-10-10-10-12-12-12-12-12-12-12-12-
B|-12-12-12-12-12-12-12-12-13-13-13-13-13-13-13-13-
G|-12-12-12-12-12-12-12-12-12-12-12-12-12-12-12-12-
D|-------------------------------------------------
A|-------------------------------------------------
E|-------------------------------------------------



E|-7-7-7-7-7-7-7-7-8-8-8-8-8-8-8-8-
B|-8-8-8-8-8-8-8-8-8-8-8-8-8-8-8-8-
G|-7-7-7-7-7-7-7-7-7-7-7-7-7-7-7-7-
D|---------------------------------
A|---------------------------------
E|---------------------------------



E|-7----8----7----8-
B|-8----8----8----8-
G|-7----7----7----7-
D|------------------
A|------------------
E|------------------
http://www.guitartabcreator.com
Guitar Tab Creator is intended to store guitar tab created through the tool. It currently does not support in-line text editing. Any text you place in here will be lost. If you need to comment on your tab, please use the "Tab Notes" section located below.