Quicksand

(/) Slide Up  (\) Slide Down  (h) Hammer On  (p) Pull Off  (b) Bend (r) Release (v) Vibrato

E|-------------------------------------------------------------------
B|-------------------------------------------------------------------
G|---8-10-12----------8-10-12----------7-8-10---------7-8-10---------
D|-8---------10-8-6-8---------10-8-6-8--------8-6-5-6--------8-6-5-6-
A|-------------------------------------------------------------------
E|-------------------------------------------------------------------



E|--4--4--------11--11--------8---8---8---8---
B|--4--4--------11--11--------8---8---8---8---
G|--5--5--------12--12--------9---9---9---9---
D|--6--6--------13--13--------10--10--10--10--
A|--6--6--------13--13--------10--10--10--10--
E|--4--4--------11--11--------8---8---8---8---
http://www.guitartabcreator.com
Guitar Tab Creator is intended to store guitar tab created through the tool. It currently does not support in-line text editing. Any text you place in here will be lost. If you need to comment on your tab, please use the "Tab Notes" section located below.