Out of Myself

(/) Slide Up  (\) Slide Down  (h) Hammer On  (p) Pull Off  (b) Bend (r) Release (v) Vibrato


E|-----------------------------------------------
B|-----------------------------------------------
G|-----------------------------------------------
D|-----9--------13-----11------------------------
A|--7-------11------9-----------9-------9-----9--
E|---------------------------7-------6-----7-----



E|-------------------------------------------------------------------------
B|-------------------------------------------------------------------------
G|-------------------------------------------------------------------------
D|-9-9-9-9-9-9-9-9-13-13-13-11-11-11-11-11---------------------------------
A|-7-7-7-7-7-7-7-7-11-11-11-9--9--9--9--9--9-9-9-9-9-9-9-9-9-9-9-9-9-9-9-9-
E|--------------------------------------x--7-7-7-7-7-7-7-7-6-6-6-7-7-7-6-6-



E|--------------------------------------------------------
B|--------------------------------------------------------
G|--------------------------------------------------------
D|--13--13--13--13--13--13----11--9--9--9--9--9--9--11----
A|--11--11--11--11--11--11----9---7--7--7--7--7--7--9-----
E|--------------------------------------------------------



E|-----------------------------------------------------------------
B|-----------------------------------------------------------------
G|-----------------------------------------------------------------
D|-9-9-9-9-9-9-9-9-9-9-9-9-9-9-9-9---------------------------------
A|-7-7-7-7-7-7-7-7-7-7-7-7-7-7-7-7-9-9-9-9-9-9-9-9-9-9-9-9-9-9-9-9-
E|-----------------------x---------7-7-7-7-7-7-7-7-6-6-6-7-7-7-6-6-
http://www.guitartabcreator.com
Guitar Tab Creator is intended to store guitar tab created through the tool. It currently does not support in-line text editing. Any text you place in here will be lost. If you need to comment on your tab, please use the "Tab Notes" section located below.