Nothing to Lose

(/) Slide Up  (\) Slide Down  (h) Hammer On  (p) Pull Off  (b) Bend (r) Release (v) Vibrato


E|----7----7----7----7----
B|----7----7----7----7----
G|----7----7----7----7----
D|----9----9----9----9----
A|------------------------
E|------------------------



E|--------------------
B|--------------------
G|--------------------
D|--------------------
A|-9-9-9-14-14--14-12-
E|-7-7-7-12-12--12-10-



E|-------------------------------------------------------------
B|-------------------------------------------------------------
G|-------------------------------------------------------------
D|-------------------------------------------------------------
A|-9-9--9-9--------9-9--9-9--------9-9--12-12-------9-9--12-12-
E|-7-7--7-7--------7-7--7-7--------7-7--10-10-------7-7--10-10-
http://www.guitartabcreator.com
Guitar Tab Creator is intended to store guitar tab created through the tool. It currently does not support in-line text editing. Any text you place in here will be lost. If you need to comment on your tab, please use the "Tab Notes" section located below.