Her Eyes

(/) Slide Up  (\) Slide Down  (h) Hammer On  (p) Pull Off  (b) Bend (r) Release (v) Vibrato


E|-----------------------------------
B|-15--15--15-15-15-14-15-17-15-14---
G|-----------------------------------
D|-----------------------------------
A|-----------------------------------
E|-----------------------------------



E|-15-15-15-15-15-15-15-15-14-14-14-14-14-14-14-14-
B|-15-15-15-15-15-15-15-15-15-15-15-15-15-15-15-15-
G|-16-16-16-16-15-15-15-15-14-14-14-14-14-14-14-14-
D|-------------------------------------------------
A|-------------------------------------------------
E|-------------------------------------------------



E|-----------------------------------------------------------------------------
B|-19-19--19-19-19-19-17-17--17-17-17-17-15-15--15-15-15-15-15-15--15-15-15-15-
G|-----------------------------------------------------------------------------
D|-----------------------------------------------------------------------------
A|-----------------------------------------------------------------------------
E|-----------------------------------------------------------------------------



E|----15-------15-------15-------15-------15-------15-------15-------15------
B|-------15-------15-------15-------15-------15-------15-------15-------15---
G|-16-------16-------16-------16-------16-------16-------16-------16---------
D|---------------------------------------------------------------------------
A|---------------------------------------------------------------------------
E|---------------------------------------------------------------------------



E|----14-------14-------14-------14-------14-------14-------14-------14----
B|-------15-------15-------15-------15-------15-------15-------15-------15-
G|-14-------14-------14-------14-------14-------14-------14-------14-------
D|-------------------------------------------------------------------------
A|-------------------------------------------------------------------------
E|-------------------------------------------------------------------------
http://www.guitartabcreator.com
Guitar Tab Creator is intended to store guitar tab created through the tool. It currently does not support in-line text editing. Any text you place in here will be lost. If you need to comment on your tab, please use the "Tab Notes" section located below.