Fast Track to Nowhere

(/) Slide Up  (\) Slide Down  (h) Hammer On  (p) Pull Off  (b) Bend (r) Release (v) Vibrato

E|----------------------------------------------------------------------------------------------
B|----------------------------------------------------------------------------------------------
G|----------------------------------------------------------------------------------------------
D|-16-16-16-16-16-16-16-16-18-18-18-16-16-16-15-15-13-13-13-13-13-13-13-13-11-11-11-8-8-8-6-6\--
A|----------------------------------------------------------------------------------------------
E|----------------------------------------------------------------------------------------------



E|------------------------------------------------------------------------------
B|------------------------------------------------------------------------------
G|------------------------------------------------------------------------------
D|--18--16--15--13--------11--8--6\16--------18--16--15--13--------11--8--6-----
A|------------------------------------------------------------------------------
E|------------------------------------------------------------------------------



E|--2--------2--9---------9--4--------4--7--------7--
B|-----2-----------9------------4-----------7--------
G|--------3-----------10-----------4-----------8-----
D|---------------------------------------------------
A|---------------------------------------------------
E|---------------------------------------------------



E|----------------------------------------------------------------------------
B|----------------------------------------------------------------------------
G|----------------------------------------------------------------------------
D|----18-16-15-13--------11-8-6\16--------18-16-15-13--------11-8-6\16--------
A|----------------------------------------------------------------------------
E|----------------------------------------------------------------------------



E|------------------------------------------------------------------------------------------------
B|------------------------------------------------------------------------------------------------
G|------------------------------------------------------------------------------------------------
D|-18-18-18-16-18-16--------11-11-11-8-8-8-6-6--------18-18-18-16-18-16--------11-11-11-8-8-8-6-6-
A|------------------------------------------------------------------------------------------------
E|------------------------------------------------------------------------------------------------
http://www.guitartabcreator.com
Guitar Tab Creator is intended to store guitar tab created through the tool. It currently does not support in-line text editing. Any text you place in here will be lost. If you need to comment on your tab, please use the "Tab Notes" section located below.