New One

(/) Slide Up  (\) Slide Down  (h) Hammer On  (p) Pull Off  (b) Bend (r) Release (v) Vibrato

Capo Fret undefined

Stave 1:

E|--------0--0--------0--0--------0--0--------0--0--------0--0--------0--0--------------------------
B|-----1--1--1--------1--1-----1--1--1--------1--1-----0--0--0--------0--0--------1-----------3-----
G|--------0--0-----0--0--0--------2--2-----2--2--2--------0--0-----0--0--0-----2-----2--0--4-----4--
D|--------2--2--2-----2--2--------2--2--2-----2--2--------2--2--2-----2--2--3-----------------------
A|--3-----3--3--------3--3--0-----0--0--------0--0--------2--2--------2--2--------------------------
E|--------------------------------------------------0-----0--0--------0--0--------------------------

Stave 2:

E|-----------------------0-----------------------------------0-----------------0--------------------------
B|-----1-----------1--3-----3--1--0--1-----1-----------1--3-----3--1--0--1-----------0--------------1-----
G|-----------0-----------------------------------2-----------------------------------------------2-----2--
D|--------2-----------------------------------2--------------------------------------------2--3-----------
A|--3-----------3-----------------------0-----------0-----------------------------2-----------------------
E|--------------------------------------------------------------------------0-----------0-----------------

Stave 3:

E|-----------------0--
B|--------0--3--0--1--
G|-----0-----------0--
D|--3-----------------
A|-----------------3--
E|--------------------

http://www.guitartabcreator.com
Guitar Tab Creator is intended to store guitar tab created through the tool. It currently does not support in-line text editing. Any text you place in here will be lost. If you need to comment on your tab, please use the "Tab Notes" section located below.