Family Man - Colin Hay

(/) Slide Up  (\) Slide Down  (h) Hammer On  (p) Pull Off  (b) Bend (r) Release (v) Vibrato

Stave 1:

E|---------------------------------------------------------------------------------------
B|---------------------------------------------------------------------------------------
G|------------------------------------------------------0--0-----0--0-----0--0-----0--0--
D|---------10--10--10--10---------10--10--10--10--------9--9-----9--9-----9--9-----9--9--
A|---------10--10--10--10---------10--10--10--10--------------9--------7--------5--------
E|--11/12------------------10/11------------------9/10-----------------------------------

Stave 2:

E|-----------------------------------------------------
B|-----------------------------------------------------
G|-----------------------------------------------------
D|---------10--10--10--10---------10--10--10-----------
A|-------------10--10--10---------10--10--10-----------
E|--10/12------------------10/11--------------9/10-----

Stave 3:

E|--
B|--
G|--
D|--
A|--
E|--

http://www.guitartabcreator.com
Guitar Tab Creator is intended to store guitar tab created through the tool. It currently does not support in-line text editing. Any text you place in here will be lost. If you need to comment on your tab, please use the "Tab Notes" section located below.