We believe intro

(/) Slide Up  (\) Slide Down  (h) Hammer On  (p) Pull Off  (b) Bend (r) Release (v) Vibrato


E|--0---------------1---------------0---------------1----1--3--1-----
B|--1---------------1---------------1---------------1-------------3--
G|--0---------------2---------------0---------------2----------------
D|--2---------0--2--3----3/5--3-----2---------0--2--3----------------
A|--3------3---------------------5--3------3-------------------------
E|-------------------------------------------------------------------



E|-------------------0-------------0-------------------0-------------
B|--0----------------2-------------0-------------------2-------------
G|--1----1--2--1-----2-------------1----------------4--2-------------
D|--2-------------2--2--2/4--2-----2--------2--4/6-----2--2/4--2-----
A|--2----------------0----------4--2--2--4-------------0----------4--
E|--0------------------------------0---------------------------------
http://www.guitartabcreator.com
Guitar Tab Creator is intended to store guitar tab created through the tool. It currently does not support in-line text editing. Any text you place in here will be lost. If you need to comment on your tab, please use the "Tab Notes" section located below.