In Christ Alone

(/) Slide Up  (\) Slide Down  (h) Hammer On  (p) Pull Off  (b) Bend (r) Release (v) Vibrato


E|---------------------------------2--0--------2--0----------
B|-----0--3--3---------0--3/5------------3--0----------3--3--
G|--2---------------2----------------------------------------
D|-----------------------------------------------------------
A|-----------------------------------------------------------
E|-----------------------------------------------------------



E|---------------------------------2--0--------2--0----------
B|-----0--3--3---------0--3/5------------3--0----------3--3--
G|--2---------------2----------------------------------------
D|-----------------------------------------------------------
A|-----------------------------------------------------------
E|-----------------------------------------------------------



E|-----2--5--7------7--5-------------10--9--7----7--5--------
B|--3---------------------7--5----5--------------------7--5--
G|-----------------------------------------------------------
D|-----------------------------------------------------------
A|-----------------------------------------------------------
E|-----------------------------------------------------------



E|---------------------------------2--0--------2--0----------
B|-----0--3--3---------0--3/5------------3--0----------3--3--
G|--2---------------2----------------------------------------
D|-----------------------------------------------------------
A|-----------------------------------------------------------
E|-----------------------------------------------------------



E|-----------0------2--0---------------------------------------
B|-----0--3---------------3--0---------0--3--3-----------------
G|--2-------------------------------2--------------------------
D|-------------------------------------------------------------
A|-------------------------------------------------------------
E|-------------------------------------------------------------
http://www.guitartabcreator.com
Guitar Tab Creator is intended to store guitar tab created through the tool. It currently does not support in-line text editing. Any text you place in here will be lost. If you need to comment on your tab, please use the "Tab Notes" section located below.