Deftones - Swerve City

(/) Slide Up  (\) Slide Down  (h) Hammer On  (p) Pull Off  (b) Bend (r) Release (v) Vibrato
E|---------------------
B|---------------------
G|---------------------
D|---------------------
A|---------------------
E|--3--3--3--3h4p3--0--



E|-----------------------------------------
B|-----------------------------------------
G|-10-10-10-10-10-10-10-10-7-7-7-7-7-7-7-7-
D|-8--8--8--8--8--8--8--8--8-8-8-8-8-8-8-8-
A|-8--8--8--8--8--8--8--8--8-8-8-8-8-8-8-8-
E|-6--6--6--6--6--6--6--6--6-6-6-6-6-6-6-6-



E|---------------------------
B|---------------------------
G|---------------------------
D|-8-8-8-8-8-8---------------
A|-5-5-5-5-5-5---------------
E|-8-8-8-8-8-8-8-7-6-6\5-5\4-



E|-17-17-17-17-17-17-17-17-------------------17-17-------------------------------------------------
B|-------------------------15-15-15-15-15-15-------18-18-18-18-18-18-18-18-20-20-20-20-20-20-20-20-
G|-------------------------------------------------------------------------------------------------
D|-------------------------------------------------------------------------------------------------
A|-------------------------------------------------------------------------------------------------
E|-------------------------------------------------------------------------------------------------



E|-----------------------------------------------------------------------------------
B|-10-10-10-10-10-10-10-10-------------10-10-------------------------8-8-8-8-8-8-8-8-
G|-------------------------7-7-7-7-7-7-------10-10-10-10-10-10-10-10-8---------------
D|-8--8--8--8--8--8--8--8--8-8-8-8-8-8-8--8--8--8--8--8--8--8--8--8--8-8-8-8-8-8-8-8-
A|-8--8--8--8--8--8-----8--8-8-8-8-8-8-8--8--8--8--8--8--8--8--8--8--8-8-8-8-8-8-8-8-
E|-6--6--6--6--6--6--6--6--6-6-6-6-6-6-6--6--6--6--6--6--6--6--6--6--6-6-6-6-6-6-6-6-
http://www.guitartabcreator.com
Guitar Tab Creator is intended to store guitar tab created through the tool. It currently does not support in-line text editing. Any text you place in here will be lost. If you need to comment on your tab, please use the "Tab Notes" section located below.