cream - crossroads (solo's)

(/) Slide Up  (\) Slide Down  (h) Hammer On  (p) Pull Off  (b) Bend (r) Release (v) Vibrato


E|---------------------------------------------------------------
B|---------------------------------------------------------------
G|-----------2-----2v--2v-----2-----2--4b6---------2-----2--4/6--
D|-----2--4-----4----------4-----4------------2h4-----4----------
A|--0------------------------------------------------------------
E|---------------------------------------------------------------



E|-------5-----5--5--------------------------------------------
B|--5h7--5--7--5--5h7--5---------------------------------------
G|------------------------7--5h6-------------------5v--7p5-----
D|--------------------------------7----------5--7-----------7--
A|-------------------------------------5--7--------------------
E|-------------------------------------------------------------



E|-------5---------------------------------------------------------------5--------8--10-------
B|----------8--5---------------------------8--------------------------5-----8\10---------10v--
G|--7b9-----------5h7--5h7p5-----5h7\9--9-----9/7--5b6-----------5h6--------------------------
D|----------------------------7-------------------------7p5--7v-------------------------------
A|--------------------------------------------------------------------------------------------
E|--------------------------------------------------------------------------------------------



E|--------8--------8------------------------------------------------
B|--8h10-----8h10--------------------------5------------------------
G|--------------------9/7--5--7p5-----5h6-----7--5------------------
D|---------------------------------7----------------7---------------
A|-----------------------------------------------------7/5--3b4--0--
E|------------------------------------------------------------------
http://www.guitartabcreator.com
Guitar Tab Creator is intended to store guitar tab created through the tool. It currently does not support in-line text editing. Any text you place in here will be lost. If you need to comment on your tab, please use the "Tab Notes" section located below.