Black Keys - Your Touch

The Black Keys - Your Touch
Magic Potion
2006
Key: A

(/) Slide Up (\) Slide Down (h) Hammer On (p) Pull Off (b) Bend (r) Release (v) Vibrato

Intro Riff

E|--------------------------------------------------------------------------------
B|--------------------------------------------------------------------------------
G|--------------------------------------------------------------------------------
D|--------------------------------------------------------------------------------
A|-----------3--0--5--5--5--5--5--3--5--3-----------3--0--5--5--5--5--5--3--5--3--
E|--5--3--0--------------------------------5--3--0--------------------------------

Verse Riff

E|-----------------------
B|-----------------------
G|-----------7--5--7--5--
D|--7--------7--5--7--5--
A|--7--------5--3--5--3--
E|--5--------------------

Chorus Riff

E|-----------------------------
B|-----------------------------
G|-----------------7--5--7--5--
D|--7--------------7--5--7--5--
A|--7-----------3--5--3--5--3--
E|--5--12\5--5-----------------

In de 'solo' speelt hij veel met het verse riffje en in de pauzes daarvan een note omhoog buigen met feedback

hij begint met de intro
4x verse riff dan zang
4x verse riff met zang
4x Chorus riff
4x verse riff met zang
4x chorus riff
4x 'solo' riff, improvisatie op verse riff
intro
1x verse riff + 1x chorus riff
4x verse riff
4x chorus riff
eindigt met een A power chord
http://www.guitartabcreator.com
Guitar Tab Creator is intended to store guitar tab created through the tool. It currently does not support in-line text editing. Any text you place in here will be lost. If you need to comment on your tab, please use the "Tab Notes" section located below.