The Black Keys - Thickfreakness

The Black Keys - Thickfreakness
Thickfreakness (2003)
Key: A
Tab door Tom te Buck

(/) Slide Up (\) Slide Down (h) Hammer On (p) Pull Off (b) Bend (r) Release (v) Vibrato

Begin het nummer met een rauwe bend op de 2e fret van de A-snaar.

Intro riff

E|-------------------------------------------------------------------------
B|-------------------------------------------------------------------------
G|-------------------------------------------------------------------------
D|--7--5-----------------------------7--5----------------------------------
A|--------7--5--3--5--3h5p3----------------7--5--3--5--3h5--3h5--3h5p3-----
E|---------------------------3--5---------------------------------------3--



E|------------------------------------------------------------
B|------------------------------------------------------------
G|------------------------------------------------------------
D|--7--5-----------------------------7--5----------------5b7--
A|--------7--5--3--5--3h5p3----------------7--5--3--5/7-------
E|---------------------------3--5-----------------------------


Riff #1

E|-----------------------------------------------------------------
B|-----------------------------------------------------------------
G|-----2-----2-----2--2----------------2-----2-----2--2p0----------
D|-----2-----2-----2--2----------------2-----2-----2-------2p0-----
A|--0-----0-----0-------------------0-----0-----0---------------3--
E|-----------------------0--3--4-----------------------------------



E|---------------------------------------------------------
B|---------------------------------------------------------
G|-----2-----2-----2--2----------------2-----2-------------
D|-----2-----2-----2--2----------------2-----2-------------
A|--0-----0-----0-------------------0-----0-----0----------
E|-----------------------0--3--4---------------------------


Riff #2

E|----------------------------------------3--0----------
B|-----1--3--1-------1-----------------1--------3p1-----
G|--2-----------0h2-----2-----------2----------------2--
D|-------------------------------0----------------------
A|-------------------------3--3-------------------------
E|------------------------------------------------------


Riff #1 (alternatief)

E|----------------------------------------------------------------
B|-----2----------------------------------------------------------
G|-----2-----2-----2--2----------------2-----2-----2--2-----------
D|-----2-----2-----2--2----------------2-----2-----2--2-----------
A|--0-----0-----0-------------------0-----0-----0-----------------
E|-----------------------0--3--4-------------------------3--2--0--

Bridge riff

E|--0-------------------0----------
B|-----3--------3--1-------3p1-----
G|------------------------------2--
D|---------------------------------
A|---------------------------------
E|--------3--3---------------------

Gitaar solo: A | G | A | G (bar A op de 5e fret, de G op de 3e fret)

De solo op het album is overdubbed met de akkoorden, als je hem met meerdere gitaren speelt zou je die helemaal kunnen spelen.
Als je hem solo speelt speel je A G A en dan een random korte lick in de A mineur pentatonische toonladder.

Volgorde van de riffs

Intro riff
Riff #1
Riff #2
Riff #1
Riff #2
Riff #1 voor de helft + Riff #1 (alternatief)
Bridge riff
Riff #1 voor de helft
intro riff
Solo
Riff #2
Riff #1
Riff #2
Riff #1 + Riff #1 (alternatief)
Bridge riff
Riff #1 voor de helft
Intro riff x2 (eindig met 7 5 3 op de a snaar 3 5 op de e snaar)

http://www.guitartabcreator.com
Guitar Tab Creator is intended to store guitar tab created through the tool. It currently does not support in-line text editing. Any text you place in here will be lost. If you need to comment on your tab, please use the "Tab Notes" section located below.