The Black Keys - Little Black Submarines (not finished yet)

The Black Keys - Little Black Submarines
El Camino (2011)
Tab door Tom te Buck

(/) Slide Up (\) Slide Down (h) Hammer On (p) Pull Off (b) Bend (r) Release (v) Vibrato

intro

E|--------------0-------------------0--------------------
B|-----1-----------1-----1-------------1-----1--1-----1--
G|-----------2--------2-----0h2-----------2--------2-----
D|--------2----------------------------------------------
A|--0----------------------------0-----------------------
E|-------------------------------------------------------

Patroon #1

E|-----------------------------------2--------------------------
B|-----1--------------0-----------------3-----3-----2-----------
G|--------2-----2--------0-----0-----------2-----------2-----2--
D|-----------2--------------0-----0-----------------------2-----
A|--0--------------------------------------------0--------------
E|-----------------3--------------------------------------------

Patroon #2

E|-----------------------------------------------------0--------
B|-----1--------------0--------------2--------2-----------2-----
G|--------2-----2--------0-----0--------2--------2-----------2--
D|-----------2--------------0--------------2--------2-----------
A|--0-----------------------------0-----------------------------
E|-----------------3--------------------------------------------

Patroon #3

E|--------------------------2-----------------------------2--------
B|-----------1-----------------3-----3-----2--------2--------2-----
G|--------------0-----0-----------2-----------2-----------------2--
D|-----------------2-----0-----------------------2-----2-----------
A|--0--2--3-----------------------------0--------------------------
E|-----------------------------------------------------------------

Ruige gedeelte:

Am | G | D | A (open akkoorden)
Am | G | A | A
http://www.guitartabcreator.com
Guitar Tab Creator is intended to store guitar tab created through the tool. It currently does not support in-line text editing. Any text you place in here will be lost. If you need to comment on your tab, please use the "Tab Notes" section located below.