Black Keys - I Got Mine (Solo)

(/) Slide Up  (\) Slide Down  (h) Hammer On  (p) Pull Off  (b) Bend (r) Release (v) Vibrato


E|------------------------------------------------------------------
B|------------------------------------------------------------------
G|------------------------------------------2p0-----2p0-----2v--0v--
D|-----2--0--2----2--0--2--0---------------------2-------2----------
A|----------------------------2--0----------------------------------
E|--0-------------------------------3----0--------------------------



E|---------------------------------------------------------------
B|-------------------------------------------0-------------------
G|-----------------------------2--0-----0h2-----2p0-----2--0-----
D|--2----2--0------------------------2---------------2--------2--
A|-------------2--0----------------------------------------------
E|-------------------3------0------------------------------------



E|----------------
B|----------------
G|--1----2--4--1--
D|--2----3--5--2--
A|--2----3--5--2--
E|--0----0--0--0--



E|-------------------------------------------------
B|-------------------------------------------------
G|-------------------------------------1--2--4--1--
D|-------------------------------------2--3--5--2--
A|--7--7--5--7--5-----5h7p5-----7--5v--2--3--5--2--
E|-----------------7---------7---------0--0--0--0--



E|---------------------------------------------------------------------------------------
B|--5p3-----5--5/7--7--7--7--7--7/8\5--3--5--3--3v--5--5/8--7h8--8/10--12p10------10--8--
G|-------4--------------------------------------------------------------------12---------
D|---------------------------------------------------------------------------------------
A|---------------------------------------------------------------------------------------
E|---------------------------------------------------------------------------------------



E|--------------------------------
B|--7h8--5--8--7--7\5--5--5--5h3--
G|--------------------------------
D|--------------------------------
A|--------------------------------
E|--------------------------------
http://www.guitartabcreator.com
Guitar Tab Creator is intended to store guitar tab created through the tool. It currently does not support in-line text editing. Any text you place in here will be lost. If you need to comment on your tab, please use the "Tab Notes" section located below.