The Black Keys - Girl is on my Mind

The Black Keys - Girl is on my Mind
Rubber Factory (2004)
Tab by Tom te Buck
Key: F#

Dan plays it with a capo on the 2nd fret. I play it without, sounds good anyway and it's not that different. So this tab is without the capo.

(/) Slide Up (\) Slide Down (h) Hammer On (p) Pull Off (b) Bend (r) Release (v) Vibrato

Intro

E|--------------------------------------------
B|-------5-------5-------5--------------------
G|--4/6-----4/6-----4/6-----6\4--2h4--2-------
D|---------------------------------------4p2--
A|--------------------------------------------
E|--------------------------------------------



E|---------------------------------------------------------------------------
B|---------------------------------------------------------------------------
G|---------------------------------------------------------------------------
D|-----4--------7--------9------------------4--------7--------9--9--9--9b10--
A|-----4--------7--------9------------------4--------7--------9--------------
E|--2--2--0--5--5--0--7--7--0--9\7--5----2--2--0--5--5--0--7--7--------------

Main Riff (Sometimes you hear an improvised variation on this riff)

E|-------------------------------------
B|-------------------------------------
G|-------------------------------------
D|-----4--------7--------9-------------
A|-----4--------7--------9-------------
E|--2--2--0--5--5--0--7--7--0--9\7--5--

Bridge riff (Played twice)

E|--14--14--14--14--12--12--12--12--14--14--14--14--17--17--17--17--
B|--14--14--14--14--12--12--12--12--14--14--14--14--17--17--17--17--
G|------------------------------------------------------------------
D|------------------------------------------------------------------
A|------------------------------------------------------------------
E|------------------------------------------------------------------

Solo

E|------------------------------------------------------------------------------
B|------------------------------------------------------------------------------
G|--------9------9h11--9--6--5--4--2v--------------9------9h11--9--6--9--6------
D|--9/11-----11------------------------4v----9/11-----11--------------------9v--
A|------------------------------------------------------------------------------
E|------------------------------------------------------------------------------



E|--------------------------------------------------------------------10--
B|----------------------------------------------------------------12--12--
G|--------9--9h11--9--6--5--4--2--------------9------9h11------9----------
D|--9/11--------------------------4v----9/11-----11--------11-------------
A|------------------------------------------------------------------------
E|------------------------------------------------------------------------

http://www.guitartabcreator.com
Guitar Tab Creator is intended to store guitar tab created through the tool. It currently does not support in-line text editing. Any text you place in here will be lost. If you need to comment on your tab, please use the "Tab Notes" section located below.