ćuso-tab

(/) Slide Up  (\) Slide Down  (h) Hammer On  (p) Pull Off  (b) Bend (r) Release (v) Vibrato

E|--------11--
B|-----8------
G|--8---------
D|------------
A|------------
E|------------



E|--------10--
B|-----8------
G|--7---------
D|------------
A|------------
E|------------



E|------10------
B|----------11--
G|--10----------
D|--------------
A|--------------
E|--------------



E|--------8--
B|-----6-----
G|--5--------
D|-----------
A|-----------
E|-----------
http://www.guitartabcreator.com
Guitar Tab Creator is intended to store guitar tab created through the tool. It currently does not support in-line text editing. Any text you place in here will be lost. If you need to comment on your tab, please use the "Tab Notes" section located below.