fight for your fight

(/) Slide Up  (\) Slide Down  (h) Hammer On  (p) Pull Off  (b) Bend (r) Release (v) Vibrato
E|------------------------------------------------------------------------
B|------------------------------------------------------------------------
G|------------------------------------------------------------------0-----
D|-----5\4-----4--------5-----------0--------5\4--------5--------4-----4--
A|--0-------5-----0--3-----------4-----4--0-------0--3-----0--5-----------
E|-------------------------0--5-------------------------------------------



E|------------------------------------------------------------------------
B|------------------------------------------------------------------------
G|------------------------------------------------------------------0-----
D|-----5\4-----4--------5-----------0--------5\4--------5--------4-----4--
A|--0-------5-----0--3-----------4-----4--0-------0--3-----0--5-----------
E|-------------------------0--5-------------------------------------------



E|------------------------------------------------------------------
B|------------------------------------------------------------------
G|------------------------------------------------------------0-----
D|-----5\2--------5-----------0--------5\2--------5--------4-----4--
A|--0-------0--3-----------4-----4--0-------0--3-----0--5-----------
E|-------------------0--5-------------------------------------------



E|------------------------------------------------------------------
B|------------------------------------------------------------------
G|------------------------------------------------------------0-----
D|-----5\2--------5-----------0--------5\2--------5--------4-----4--
A|--0-------0--3-----------4-----4--0-------0--3-----0--5-----------
E|-------------------0--5-------------------------------------------



E|--------------------------------------------------------------------------------------------------
B|--------------------------------------------------------------------------------------------------
G|--3--3--3--3--3--3--3--3--5--5--5--5--5--5--5--5--------------------------------------------------
D|--3--3--3--3--3--3--3--3--5--5--5--5--5--5--5--5--5--5--5--5--5--5--5--5--3--3--3--3--3--3--3--3--
A|--1--1--1--1--1--1--1--1--3--3--3--3--3--3--3--3--5--5--5--5--5--5--5--5--3--3--3--3--3--3--3--3--
E|--------------------------------------------------3--3--3--3--3--3--3--3--1--1--1--1--1--1--1--1--



E|--------------------------------------------------------------------------------------------------
B|--------------------------------------------------------------------------------------------------
G|--3--3--3--3--3--3--3--3--------------------------------------------------------------------------
D|--3--3--3--3--3--3--3--3--3--3--3--3--3--3--3-----------------0-----------------------0-----------
A|--1--1--1--1--1--1--1--1--3--3--3--3--3--3--3-----------1--------1-----1-----1-----1-----1-----1--
E|--------------------------1--1--1--1--1--1--1--0--3--3-----3--------3-----3-----3-----------3-----



E|----------------------------------------------------
B|----------------------------------------------------
G|----------------------------------------------------
D|--------4-----7--------4-----4----------4--------4--
A|--5--5-----5-----5--5-----3-------3--3-----3--3-----
E|----------------------------------------------------
http://www.guitartabcreator.com
Guitar Tab Creator is intended to store guitar tab created through the tool. It currently does not support in-line text editing. Any text you place in here will be lost. If you need to comment on your tab, please use the "Tab Notes" section located below.