My Superstition - Strophe Tablature

(/) Slide Up  (\) Slide Down  (h) Hammer On  (p) Pull Off  (b) Bend (r) Release (v) Vibrato
(Repeat 4 times)

D|--------------------------------------------------------------------------------------------------
B|--------------------------------------------------------------------------------------------------
G|--------------------------------------------------------------------------------------------------
D|--------0--------0--------0--------0--------0-----------0--------0--------0--------0--------0-----
A|-----0--------0--------0--------0--------0-----------0--------0--------0--------0--------0--------
D|--0--------3--------2--------2--------2--------2--0--------3--------2--------2--------2--------2--

(end Repeat)

D|--------------------------------------------------------------------------------------
B|--------------------------------------------------------------------------------------
G|--------------------------------------------------------------------------------------
D|--------0--------0--------0--------0--------------0--------0--------0--------0--------
A|-----0--------0--------0--------0--------0-----0--------0--------0--------0--------0--
D|--0--------3--------2--------2--------2-----0--------3--------2--------2--------2-----

D|--------------------------------------------------------------------------------------
B|--------------------------------------------------------------------------------------
G|--------------------------------------------------------------------------------------
D|--------0--------0--2-----------------------------------------3--2--------------------
A|-----0--------0-----2-----------------------------------------------3--2--0-----------
D|--0--------3--------2--------------------------------------------------------5--3--2--
Guitar Tab Creator is intended to store guitar tab created through the tool. It currently does not support in-line text editing. Any text you place in here will be lost. If you need to comment on your tab, please use the "Tab Notes" section located below.