My Superstition - Intro

(/) Slide Up  (\) Slide Down  (h) Hammer On  (p) Pull Off  (b) Bend (r) Release (v) Vibrato
D|--------------0-----------------------0-----------------------0-------------------------0-----------
B|-----------0-----0-----0-----------0-----0-----0-----------0-----0-----0-------------0-----0-----0--
G|--------7-----------7-----------5-----------5-----------5-----------5-------------5-----------5-----
D|-----7-----------------------7-----------------------5-----------------------0h5--------------------
A|----------------------------------------------------------------------------------------------------
D|--0-----------------------0-----------------------0-----------------------0-------------------------



D|--------------0-----------------------0-----------------------0-------------------------0-----------
B|-----------0-----0-----0-----------0-----0-----0-----------0-----0-----0-------------0-----0-----0--
G|--------7-----------7-----------5-----------5-----------5-----------5-------------5-----------5-----
D|-----7-----------------------7-----------------------5-----------------------0h5--------------------
A|----------------------------------------------------------------------------------------------------
D|--0-----------------------0-----------------------0-----------------------0-------------------------



D|--------------3-----------------------3-----------------------3-----------------------3-----------
B|--------3--------3-----3--------3--------3-----3--------3--------3-----3--------3--------3-----3--
G|-----3-----3--------3--------3-----3--------3--------3-----3--------3--------3-----3--------3-----
D|--------------------------------------------------------------------------------------------------
A|--------------------------------------------------------------------------------------------------
D|--3-----------------------3-----------------------2-----------------------2-----------------------



D|--------------------------------------------------------------------------------------
B|--------------------------------------------------------------------------------------
G|--------------------------------------------------------------------------------------
D|--------0--------0--------0--------0--------------0--------0--------0--------0--------
A|-----0--------0--------0--------0--------0-----0--------0--------0--------0--------0--
D|--0--------3--------2--------2--------2-----0--------3--------2--------2--------2-----



D|--------------------------------------------------------------------------------------
B|--------------------------------------------------------------------------------------
G|--------------------------------------------------------------------------------------
D|--------0--------0--------0--------0--------------0--------0--------0--------0--------
A|-----0--------0--------0--------0--------0-----0--------0--------0--------0--------0--
D|--0--------3--------2--------2--------2-----0--------3--------2--------2--------2-----
http://www.guitartabcreator.com
Guitar Tab Creator is intended to store guitar tab created through the tool. It currently does not support in-line text editing. Any text you place in here will be lost. If you need to comment on your tab, please use the "Tab Notes" section located below.