Mr Speed

(/) Slide Up  (\) Slide Down  (h) Hammer On  (p) Pull Off  (b) Bend (r) Release (v) Vibrato


E|----------------------------------------------------
B|---------------12--------------------------10-------
G|--9--9--11\13------11--9v----7--7----9\11------9--7v
D|--9--9-----------------------7--7-------------------
A|----------------------------------------------------
E|----------------------------------------------------



E|--------------------------------------
B|--------------------------------------
G|--2--2--4--2--4b--2--4--4--6--4--6b--4
D|--2--2--4--2--4---2--4--4--6--4--6---4
A|--------------------------------------
E|--------------------------------------
Guitar Tab Creator is intended to store guitar tab created through the tool. It currently does not support in-line text editing. Any text you place in here will be lost. If you need to comment on your tab, please use the "Tab Notes" section located below.