Composition

(/) Slide Up  (\) Slide Down  (h) Hammer On  (p) Pull Off  (b) Bend (r) Release (v) Vibrato

E|--4-----4--------------4-----4--------------4-----4--------------------------4-----------4-----------
B|-----5-----5--4--5--4-----5-----5--4--5--4-----5-----5--4--5--4--2--0--2--4-----5--4--5-----5--4--2--
G|-----------------------------------------------------------------------------------------------------
D|-----------------------------------------------------------------------------------------------------
A|-----------------------------------------------------------------------------------------------------
E|-----------------------------------------------------------------------------------------------------



E|--4--------------------------4-----4-----4-----------------4-----4-----4--------------------
B|-----5--4--7--9--12--15--17-----5-----5-----5--4--5--7--9-----5-----5-----5--4--2--0--2--0--
G|--------------------------------------------------------------------------------------------
D|--------------------------------------------------------------------------------------------
A|--------------------------------------------------------------------------------------------
E|--------------------------------------------------------------------------------------------

Stave 1:

E|--4-----4-----4-------------------------------------------------
B|-----5-----5-----5--4--5--7--9--12--10--9--7--12--9--10--9--12--
G|----------------------------------------------------------------
D|----------------------------------------------------------------
A|----------------------------------------------------------------
E|----------------------------------------------------------------

http://www.guitartabcreator.com
Guitar Tab Creator is intended to store guitar tab created through the tool. It currently does not support in-line text editing. Any text you place in here will be lost. If you need to comment on your tab, please use the "Tab Notes" section located below.