Custom Tabs

(/) Slide Up  (\) Slide Down  (h) Hammer On  (p) Pull Off  (b) Bend (r) Release (v) Vibrato
E|-0-----------------------------------------------
B|-------------0-----------------------------------
G|-------------------------0-----------------------
D|---0-------0---0-------0---0-------0-0-0-------0-
A|-----0---0-------0---0-------0---0-------0---0---
E|-------0-----------0-----------0-----------0-----



E|-0---------------------------------------------
B|-------------0---------------------------------
G|-------------------------0---------------------
D|-----0-----0-----0-----0-----0-----0---0-----0-
A|---0-----0-----0-----0-----0-----0---0-----0---
E|-------0-----------0-----------0---------0-----



E|--0-----------------------------------------------------------------------
B|--------------------0-----------------------------------------------------
G|--------------------------------------0-----------------------------------
D|-----0-----------0-----0-----------0-----0-----------0--0--0-----------0--
A|--------0-----0-----------0-----0-----------0-----0-----------0-----0-----
E|-----------0-----------------0-----------------0-----------------0--------
http://www.guitartabcreator.com
Guitar Tab Creator is intended to store guitar tab created through the tool. It currently does not support in-line text editing. Any text you place in here will be lost. If you need to comment on your tab, please use the "Tab Notes" section located below.