Smrtiaci plan

(/) Slide Up  (\) Slide Down  (h) Hammer On  (p) Pull Off  (b) Bend (r) Release (v) Vibrato

E|----------------------------------------
B|----------------------------------------
G|--7--------5--------3--------10--9------
D|-----0--0-----0--0-----0--0---------10--
A|----------------------------------------
E|----------------------------------------



E|--------------------------------------------------------
B|-----------6--------------------------------------------
G|--------7--------------7-----------5--------------------
D|-----7--------------7-----------7-----------7--------7--
A|--5--------------5-----------5-----------5--------5-----
E|--------------6-----------8-----------6--------5--------



E|-----
B|-----
G|-----
D|-----
A|-----
E|-----



E|-----------------------------------------------------------------------------
B|-----------------------------------------------------------------------------
G|--7--7--7--9--7-----5--5--5--7--5-----3--3--3--5--3-----9---9--9--10--9------
D|--7--------------7--5--------------5--3--------------3--10---------------10--
A|-----------------------------------------------------------------------------
E|-----------------------------------------------------------------------------



E|------------------------------------------------------------------
B|------------------------------------------------------------------
G|-----10--9---------10--9----------10--9------10--9------10--9--7--
D|--7---------10------------10-------------12---------10------------
A|--5-------------8-------------10----------------------------------
E|----------------6-------------8-----------------------------------
http://www.guitartabcreator.com
Guitar Tab Creator is intended to store guitar tab created through the tool. It currently does not support in-line text editing. Any text you place in here will be lost. If you need to comment on your tab, please use the "Tab Notes" section located below.