sds

(/) Slide Up  (\) Slide Down  (h) Hammer On  (p) Pull Off  (b) Bend (r) Release (v) Vibrato
E|-------------------------------------------------------------
B|---------10--------------------------------------------------
G|--12b12------------------------------------------------------
D|-------------------------------------------------------------
A|-------------------------------------------------------------
E|-------------------------------------------------------------



E|-------------------------------------------------------------------------------------------
B|-------------------------------------------------------------------------------------------
G|--12--12--12--12--12--12--12--12--10--10--10--10--10--10--10--10--10---------10------------
D|----------------------------------------------------------------------10h12------10h12-----
A|-------------------------------------------------------------------------------------------
E|-------------------------------------------------------------------------------------------



E|---------------------------------
B|---------------------------------
G|--10---------10--12--------------
D|------10h12----------------------
A|---------------------------------
E|---------------------------------



E|------------------------------------------------------------------------------
B|---------10---------13---------15-----------------------------------------15--
G|--12b12------15b15------17b17------17--17--17--17--17--17--17--17--17b17------
D|------------------------------------------------------------------------------
A|------------------------------------------------------------------------------
E|------------------------------------------------------------------------------



E|-----
B|-----
G|-----
D|-----
A|-----
E|-----



E|-----
B|-----
G|-----
D|--0--
A|--0--
E|--0--



E|------
B|------
G|------
D|--12--
A|------
E|------
http://www.guitartabcreator.com
Guitar Tab Creator is intended to store guitar tab created through the tool. It currently does not support in-line text editing. Any text you place in here will be lost. If you need to comment on your tab, please use the "Tab Notes" section located below.